  0
SECTION
  2
HEADER
  9
$ACADVER
  1
AC1015
  9
$ACADMAINTVER
 70
     6
  9
$DWGCODEPAGE
  3
ANSI_1254
  9
$INSBASE
 10
0.0
 20
0.0
 30
0.0
  9
$EXTMIN
 10
0.0
 20
0.0
 30
0.0
  9
$EXTMAX
 10
279.4
 20
215.9
 30
0.0
  9
$LIMMIN
 10
0.0
 20
0.0
  9
$LIMMAX
 10
279.4
 20
215.9
  9
$ORTHOMODE
 70
     0
  9
$REGENMODE
 70
     1
  9
$FILLMODE
 70
     1
  9
$QTEXTMODE
 70
     0
  9
$MIRRTEXT
 70
     1
  9
$LTSCALE
 40
1.0
  9
$ATTMODE
 70
     1
  9
$TEXTSIZE
 40
3.5
  9
$TRACEWID
 40
1.0
  9
$TEXTSTYLE
  7
Standard
  9
$CLAYER
  8
0
  9
$CELTYPE
  6
ByLayer
  9
$CECOLOR
 62
   256
  9
$CELTSCALE
 40
1.0
  9
$DISPSILH
 70
     0
  9
$DIMSCALE
 40
1.0
  9
$DIMASZ
 40
3.5
  9
$DIMEXO
 40
1.0
  9
$DIMDLI
 40
3.75
  9
$DIMRND
 40
0.0
  9
$DIMDLE
 40
0.0
  9
$DIMEXE
 40
1.0
  9
$DIMTP
 40
0.0
  9
$DIMTM
 40
0.0
  9
$DIMTXT
 40
3.5
  9
$DIMCEN
 40
2.5
  9
$DIMTSZ
 40
0.0
  9
$DIMTOL
 70
     0
  9
$DIMLIM
 70
     0
  9
$DIMTIH
 70
     1
  9
$DIMTOH
 70
     1
  9
$DIMSE1
 70
     0
  9
$DIMSE2
 70
     0
  9
$DIMTAD
 70
     1
  9
$DIMZIN
 70
     0
  9
$DIMBLK
  1

  9
$DIMASO
 70
     1
  9
$DIMSHO
 70
     1
  9
$DIMPOST
  1

  9
$DIMAPOST
  1

  9
$DIMALT
 70
     0
  9
$DIMALTD
 70
     3
  9
$DIMALTF
 40
0.0393700787
  9
$DIMLFAC
 40
1.0
  9
$DIMTOFL
 70
     1
  9
$DIMTVP
 40
0.0
  9
$DIMTIX
 70
     0
  9
$DIMSOXD
 70
     0
  9
$DIMSAH
 70
     0
  9
$DIMBLK1
  1

  9
$DIMBLK2
  1

  9
$DIMSTYLE
  2
ISO-25
  9
$DIMCLRD
 70
     0
  9
$DIMCLRE
 70
     0
  9
$DIMCLRT
 70
     0
  9
$DIMTFAC
 40
1.0
  9
$DIMGAP
 40
1.524
  9
$DIMJUST
 70
     0
  9
$DIMSD1
 70
     0
  9
$DIMSD2
 70
     0
  9
$DIMTOLJ
 70
     0
  9
$DIMTZIN
 70
     0
  9
$DIMALTZ
 70
     0
  9
$DIMALTTZ
 70
     0
  9
$DIMUPT
 70
     0
  9
$DIMDEC
 70
     2
  9
$DIMTDEC
 70
     2
  9
$DIMALTU
 70
     2
  9
$DIMALTTD
 70
     3
  9
$DIMTXSTY
  7
Standard
  9
$DIMAUNIT
 70
     0
  9
$DIMADEC
 70
     2
  9
$DIMALTRND
 40
0.0
  9
$DIMAZIN
 70
     0
  9
$DIMDSEP
 70
    44
  9
$DIMATFIT
 70
     3
  9
$DIMFRAC
 70
     0
  9
$DIMLDRBLK
  1

  9
$DIMLUNIT
 70
     2
  9
$DIMLWD
 70
    -2
  9
$DIMLWE
 70
    -2
  9
$DIMTMOVE
 70
     0
  9
$LUNITS
 70
     2
  9
$LUPREC
 70
     2
  9
$SKETCHINC
 40
1.0
  9
$FILLETRAD
 40
10.0
  9
$AUNITS
 70
     0
  9
$AUPREC
 70
     2
  9
$MENU
  1
.
  9
$ELEVATION
 40
0.0
  9
$PELEVATION
 40
0.0
  9
$THICKNESS
 40
0.0
  9
$LIMCHECK
 70
     0
  9
$CHAMFERA
 40
0.0
  9
$CHAMFERB
 40
0.0
  9
$CHAMFERC
 40
0.0
  9
$CHAMFERD
 40
0.0
  9
$SKPOLY
 70
     0
  9
$TDCREATE
 40
2458985.638576343
  9
$TDUCREATE
 40
2458985.513576343
  9
$TDUPDATE
 40
2458985.638576574
  9
$TDUUPDATE
 40
2458985.513576574
  9
$TDINDWG
 40
0.0000000116
  9
$TDUSRTIMER
 40
0.0000000116
  9
$USRTIMER
 70
     1
  9
$ANGBASE
 50
0.0
  9
$ANGDIR
 70
     0
  9
$PDMODE
 70
     0
  9
$PDSIZE
 40
-1.0
  9
$PLINEWID
 40
0.0
  9
$SPLFRAME
 70
     0
  9
$SPLINETYPE
 70
     6
  9
$SPLINESEGS
 70
     8
  9
$HANDSEED
  5
C1
  9
$SURFTAB1
 70
     6
  9
$SURFTAB2
 70
     6
  9
$SURFTYPE
 70
     6
  9
$SURFU
 70
     6
  9
$SURFV
 70
     6
  9
$UCSBASE
  2

  9
$UCSNAME
  2

  9
$UCSORG
 10
0.0
 20
0.0
 30
0.0
  9
$UCSXDIR
 10
1.0
 20
0.0
 30
0.0
  9
$UCSYDIR
 10
0.0
 20
1.0
 30
0.0
  9
$UCSORTHOREF
  2

  9
$UCSORTHOVIEW
 70
     0
  9
$UCSORGTOP
 10
0.0
 20
0.0
 30
0.0
  9
$UCSORGBOTTOM
 10
0.0
 20
0.0
 30
0.0
  9
$UCSORGLEFT
 10
0.0
 20
0.0
 30
0.0
  9
$UCSORGRIGHT
 10
0.0
 20
0.0
 30
0.0
  9
$UCSORGFRONT
 10
0.0
 20
0.0
 30
0.0
  9
$UCSORGBACK
 10
0.0
 20
0.0
 30
0.0
  9
$PUCSBASE
  2

  9
$PUCSNAME
  2

  9
$PUCSORG
 10
0.0
 20
0.0
 30
0.0
  9
$PUCSXDIR
 10
1.0
 20
0.0
 30
0.0
  9
$PUCSYDIR
 10
0.0
 20
1.0
 30
0.0
  9
$PUCSORTHOREF
  2

  9
$PUCSORTHOVIEW
 70
     0
  9
$PUCSORGTOP
 10
0.0
 20
0.0
 30
0.0
  9
$PUCSORGBOTTOM
 10
0.0
 20
0.0
 30
0.0
  9
$PUCSORGLEFT
 10
0.0
 20
0.0
 30
0.0
  9
$PUCSORGRIGHT
 10
0.0
 20
0.0
 30
0.0
  9
$PUCSORGFRONT
 10
0.0
 20
0.0
 30
0.0
  9
$PUCSORGBACK
 10
0.0
 20
0.0
 30
0.0
  9
$USERI1
 70
     0
  9
$USERI2
 70
     0
  9
$USERI3
 70
     0
  9
$USERI4
 70
     0
  9
$USERI5
 70
     0
  9
$USERR1
 40
0.0
  9
$USERR2
 40
0.0
  9
$USERR3
 40
0.0
  9
$USERR4
 40
0.0
  9
$USERR5
 40
0.0
  9
$WORLDVIEW
 70
     1
  9
$SHADEDGE
 70
     3
  9
$SHADEDIF
 70
    70
  9
$TILEMODE
 70
     1
  9
$MAXACTVP
 70
    64
  9
$PINSBASE
 10
0.0
 20
0.0
 30
0.0
  9
$PLIMCHECK
 70
     0
  9
$PEXTMIN
 10
1.0000000000E+20
 20
1.0000000000E+20
 30
1.0000000000E+20
  9
$PEXTMAX
 10
-1.0000000000E+20
 20
-1.0000000000E+20
 30
-1.0000000000E+20
  9
$PLIMMIN
 10
0.0
 20
0.0
  9
$PLIMMAX
 10
420.0
 20
297.0
  9
$UNITMODE
 70
     0
  9
$VISRETAIN
 70
     1
  9
$PLINEGEN
 70
     0
  9
$PSLTSCALE
 70
     1
  9
$TREEDEPTH
 70
  3020
  9
$CMLSTYLE
  2
Standard
  9
$CMLJUST
 70
     0
  9
$CMLSCALE
 40
20.0
  9
$PROXYGRAPHICS
 70
     1
  9
$MEASUREMENT
 70
     1
  9
$CELWEIGHT
370
    -1
  9
$ENDCAPS
280
     0
  9
$JOINSTYLE
280
     0
  9
$LWDISPLAY
290
     1
  9
$INSUNITS
 70
     4
  9
$HYPERLINKBASE
  1

  9
$STYLESHEET
  1

  9
$XEDIT
290
     1
  9
$CEPSNTYPE
380
     0
  9
$PSTYLEMODE
290
     1
  9
$FINGERPRINTGUID
  2
{a2ecba1f-2c42-4749-b4dd-f726de276cc2}
  9
$VERSIONGUID
  2
{FAEB1C32-E019-11D5-929B-00C0DF256EC4}
  9
$EXTNAMES
290
     1
  9
$PSVPSCALE
 40
0.0
  9
$OLESTARTUP
290
     0
  0
ENDSEC
  0
SECTION
  2
CLASSES
  0
CLASS
  1
ACDBDICTIONARYWDFLT
  2
AcDbDictionaryWithDefault
  3
ObjectDBX Classes
 90
        0
280
     0
281
     0
  0
CLASS
  1
VISUALSTYLE
  2
AcDbVisualStyle
  3
ObjectDBX Classes
 90
     4095
280
     0
281
     0
  0
CLASS
  1
MATERIAL
  2
AcDbMaterial
  3
ObjectDBX Classes
 90
     1153
280
     0
281
     0
  0
CLASS
  1
SCALE
  2
AcDbScale
  3
ObjectDBX Classes
 90
     1153
280
     0
281
     0
  0
CLASS
  1
TABLESTYLE
  2
AcDbTableStyle
  3
ObjectDBX Classes
 90
     4095
280
     0
281
     0
  0
CLASS
  1
MLEADERSTYLE
  2
AcDbMLeaderStyle
  3
ACDB_MLEADERSTYLE_CLASS
 90
     4095
280
     0
281
     0
  0
CLASS
  1
SUN
  2
AcDbSun
  3
SCENEOE
 90
     1153
280
     0
281
     0
  0
CLASS
  1
ACDBPLACEHOLDER
  2
AcDbPlaceHolder
  3
ObjectDBX Classes
 90
        0
280
     0
281
     0
  0
CLASS
  1
LAYOUT
  2
AcDbLayout
  3
ObjectDBX Classes
 90
        0
280
     0
281
     0
  0
ENDSEC
  0
SECTION
  2
TABLES
  0
TABLE
  2
VPORT
  5
8
330
0
100
AcDbSymbolTable
 70
     1
  0
VPORT
  5
29
330
8
100
AcDbSymbolTableRecord
100
AcDbViewportTableRecord
  2
*Active
 70
     0
 10
0.0
 20
0.0
 11
1.0
 21
1.0
 12
139.7
 22
107.95
 13
0.0
 23
0.0
 14
10.0
 24
10.0
 15
10.0
 25
10.0
 16
0.0
 26
0.0
 36
1.0
 17
0.0
 27
0.0
 37
0.0
 40
215.9
 41
1.2941176471
 42
50.0
 43
0.0
 44
0.0
 50
0.0
 51
0.0
 71
     0
 72
  2000
 73
     1
 74
     3
 75
     0
 76
     0
 77
     0
 78
     0
281
     0
 65
     1
110
0.0
120
0.0
130
0.0
111
1.0
121
0.0
131
0.0
112
0.0
122
1.0
132
0.0
 79
     0
146
0.0
  0
ENDTAB
  0
TABLE
  2
LTYPE
  5
5
330
0
100
AcDbSymbolTable
 70
     6
  0
LTYPE
  5
14
330
5
100
AcDbSymbolTableRecord
100
AcDbLinetypeTableRecord
  2
ByBlock
 70
     0
  3

 72
    65
 73
     0
 40
0.0
  0
LTYPE
  5
15
330
5
100
AcDbSymbolTableRecord
100
AcDbLinetypeTableRecord
  2
ByLayer
 70
     0
  3

 72
    65
 73
     0
 40
0.0
  0
LTYPE
  5
16
330
5
100
AcDbSymbolTableRecord
100
AcDbLinetypeTableRecord
  2
Continuous
 70
     0
  3
Solid line
 72
    65
 73
     0
 40
0.0
  0
LTYPE
  5
6E
330
5
100
AcDbSymbolTableRecord
100
AcDbLinetypeTableRecord
  2
HIDDEN
 70
     0
  3
Hidden __ __ __ __ __ __ __ __ __ __ __ __ __ __
 72
    65
 73
     2
 40
1.905
 49
1.27
 74
     0
 49
-0.635
 74
     0
  0
LTYPE
  5
6F
330
5
100
AcDbSymbolTableRecord
100
AcDbLinetypeTableRecord
  2
PHANTOM
 70
     0
  3
Phantom ______  __  __  ______  __  __  ______
 72
    65
 73
     6
 40
12.7
 49
6.35
 74
     0
 49
-1.27
 74
     0
 49
1.27
 74
     0
 49
-1.27
 74
     0
 49
1.27
 74
     0
 49
-1.27
 74
     0
  0
LTYPE
  5
70
330
5
100
AcDbSymbolTableRecord
100
AcDbLinetypeTableRecord
  2
CENTER
 70
     0
  3
Center ____ _ ____ _ ____ _ ____ _ ____ _ ____
 72
    65
 73
     4
 40
10.16
 49
6.35
 74
     0
 49
-1.27
 74
     0
 49
1.27
 74
     0
 49
-1.27
 74
     0
  0
LTYPE
  5
71
330
5
100
AcDbSymbolTableRecord
100
AcDbLinetypeTableRecord
  2
CENTERX2
 70
     0
  3
Center (2x) ________  __  ________  __  _____
 72
    65
 73
     4
 40
20.32
 49
12.7
 74
     0
 49
-2.54
 74
     0
 49
2.54
 74
     0
 49
-2.54
 74
     0
  0
LTYPE
  5
72
330
5
100
AcDbSymbolTableRecord
100
AcDbLinetypeTableRecord
  2
DOT2
 70
     0
  3
Dot (.5x) ........................................
 72
    65
 73
     2
 40
0.635
 49
0.0
 74
     0
 49
-0.635
 74
     0
  0
ENDTAB
  0
TABLE
  2
LAYER
  5
2
330
0
100
AcDbSymbolTable
 70
    17
  0
LAYER
  5
10
330
2
100
AcDbSymbolTableRecord
100
AcDbLayerTableRecord
  2
0
 70
     0
 62
     7
  6
Continuous
370
    -3
390
F
  0
LAYER
  5
73
330
2
100
AcDbSymbolTableRecord
100
AcDbLayerTableRecord
  2
FORMAT
 70
     0
 62
     7
  6
Continuous
370
    -3
390
F
  0
LAYER
  5
74
330
2
100
AcDbSymbolTableRecord
100
AcDbLayerTableRecord
  2
YARDIMCI_GEOMETRI
 70
     0
 62
    -6
  6
Continuous
290
     0
370
    -3
390
F
  0
LAYER
  5
75
330
2
100
AcDbSymbolTableRecord
100
AcDbLayerTableRecord
  2
SAYFA_CERCEVESI
 70
     0
 62
     7
  6
Continuous
370
    25
390
F
  0
LAYER
  5
76
330
2
100
AcDbSymbolTableRecord
100
AcDbLayerTableRecord
  2
ANTET
 70
     0
 62
     7
  6
Continuous
370
    -3
390
F
  0
LAYER
  5
77
330
2
100
AcDbSymbolTableRecord
100
AcDbLayerTableRecord
  2
OLCU
 70
     0
 62
   150
  6
Continuous
370
    -3
390
F
  0
LAYER
  5
78
330
2
100
AcDbSymbolTableRecord
100
AcDbLayerTableRecord
  2
METIN
 70
     0
 62
    96
  6
Continuous
370
    -3
390
F
  0
LAYER
  5
79
330
2
100
AcDbSymbolTableRecord
100
AcDbLayerTableRecord
  2
BALON
 70
     0
 62
     5
  6
Continuous
370
    -3
390
F
  0
LAYER
  5
7A
330
2
100
AcDbSymbolTableRecord
100
AcDbLayerTableRecord
  2
VURGU
 70
     0
 62
     7
  6
Continuous
370
    -3
390
F
  0
LAYER
  5
7B
330
2
100
AcDbSymbolTableRecord
100
AcDbLayerTableRecord
  2
SILIK
 70
     0
 62
     7
  6
Continuous
370
    -3
390
F
  0
LAYER
  5
7C
330
2
100
AcDbSymbolTableRecord
100
AcDbLayerTableRecord
  2
MODEL
 70
     0
 62
     7
  6
Continuous
370
    -3
390
F
  0
LAYER
  5
7D
330
2
100
AcDbSymbolTableRecord
100
AcDbLayerTableRecord
  2
DETAYLANDıRMA
 70
     0
 62
   190
  6
Continuous
370
    -3
390
F
  0
LAYER
  5
7E
330
2
100
AcDbSymbolTableRecord
100
AcDbLayerTableRecord
  2
TOLERANS
 70
     0
 62
   230
  6
Continuous
370
    -3
390
F
  0
LAYER
  5
7F
330
2
100
AcDbSymbolTableRecord
100
AcDbLayerTableRecord
  2
MERKEZ_CIZGILERI
 70
     0
 62
    30
  6
Continuous
370
    -3
390
F
  0
LAYER
  5
80
330
2
100
AcDbSymbolTableRecord
100
AcDbLayerTableRecord
  2
KESIT-DETAY_CIZGILERI
 70
     0
 62
     7
  6
Continuous
370
    -3
390
F
  0
LAYER
  5
81
330
2
100
AcDbSymbolTableRecord
100
AcDbLayerTableRecord
  2
\U+041E\U+0421\U+0415\U+0412\U+042B\U+0415
 70
     0
 62
     7
  6
Continuous
370
    -3
390
F
  0
LAYER
  5
82
330
2
100
AcDbSymbolTableRecord
100
AcDbLayerTableRecord
  2
\U+0412\U+041E\U+0414\U+042F\U+041D\U+042B\U+0415_\U+0417\U+041D\U+0410\U+041A\U+0418
 70
     0
 62
    11
  6
Continuous
370
    -3
390
F
  0
ENDTAB
  0
TABLE
  2
STYLE
  5
3
330
0
100
AcDbSymbolTable
 70
     1
  0
STYLE
  5
11
330
3
100
AcDbSymbolTableRecord
100
AcDbTextStyleTableRecord
  2
Standard
 70
     0
 40
0.0
 41
1.0
 50
0.0
 71
     0
 42
3.5
  3
txt
  4

  0
ENDTAB
  0
TABLE
  2
VIEW
  5
6
330
0
100
AcDbSymbolTable
 70
     0
  0
ENDTAB
  0
TABLE
  2
UCS
  5
7
330
0
100
AcDbSymbolTable
 70
     0
  0
ENDTAB
  0
TABLE
  2
APPID
  5
9
330
0
100
AcDbSymbolTable
 70
     1
  0
APPID
  5
12
330
9
100
AcDbSymbolTableRecord
100
AcDbRegAppTableRecord
  2
ACAD
 70
     0
  0
ENDTAB
  0
TABLE
  2
DIMSTYLE
  5
A
330
0
100
AcDbSymbolTable
 70
     1
100
AcDbDimStyleTable
  0
DIMSTYLE
105
27
330
A
100
AcDbSymbolTableRecord
100
AcDbDimStyleTableRecord
  2
ISO-25
 70
     0
 41
2.5
 42
0.625
 43
3.75
 44
1.25
 73
     0
 74
     0
 77
     1
 78
     8
140
2.5
141
2.5
143
0.0393700787
147
0.625
171
     3
172
     1
178
     0
271
     2
272
     2
274
     3
278
    44
283
     0
284
     8
340
11
  0
ENDTAB
  0
TABLE
  2
BLOCK_RECORD
  5
1
330
0
100
AcDbSymbolTable
 70
     1
  0
BLOCK_RECORD
  5
1F
330
1
100
AcDbSymbolTableRecord
100
AcDbBlockTableRecord
  2
*Model_Space
340
22
  0
BLOCK_RECORD
  5
1B
330
1
100
AcDbSymbolTableRecord
100
AcDbBlockTableRecord
  2
*Paper_Space
340
1E
  0
BLOCK_RECORD
  5
23
330
1
100
AcDbSymbolTableRecord
100
AcDbBlockTableRecord
  2
*Paper_Space0
340
26
  0
ENDTAB
  0
ENDSEC
  0
SECTION
  2
BLOCKS
  0
BLOCK
  5
20
330
1F
100
AcDbEntity
  8
0
100
AcDbBlockBegin
  2
*Model_Space
 70
     0
 10
0.0
 20
0.0
 30
0.0
  3
*Model_Space
  1

  0
ENDBLK
  5
21
330
1F
100
AcDbEntity
  8
0
100
AcDbBlockEnd
  0
BLOCK
  5
1C
330
1B
100
AcDbEntity
 67
     1
  8
0
100
AcDbBlockBegin
  2
*Paper_Space
 70
     0
 10
0.0
 20
0.0
 30
0.0
  3
*Paper_Space
  1

  0
ENDBLK
  5
1D
330
1B
100
AcDbEntity
 67
     1
  8
0
100
AcDbBlockEnd
  0
BLOCK
  5
24
330
23
100
AcDbEntity
  8
0
100
AcDbBlockBegin
  2
*Paper_Space0
 70
     0
 10
0.0
 20
0.0
 30
0.0
  3
*Paper_Space0
  1

  0
ENDBLK
  5
25
330
23
100
AcDbEntity
  8
0
100
AcDbBlockEnd
  0
ENDSEC
  0
SECTION
  2
ENTITIES
  0
CIRCLE
  5
83
330
1F
100
AcDbEntity
  8
0
  6
Continuous
 62
     7
370
    25
100
AcDbCircle
 10
142.0054642038
 20
110.2579780167
 30
0.0
 40
315.0
  0
CIRCLE
  5
84
330
1F
100
AcDbEntity
  8
0
  6
Continuous
 62
     7
370
    25
100
AcDbCircle
 10
142.0054642038
 20
110.2579780167
 30
0.0
 40
257.8
  0
CIRCLE
  5
85
330
1F
100
AcDbEntity
  8
0
  6
Continuous
 62
     7
370
    25
100
AcDbCircle
 10
142.0054642038
 20
110.2579780167
 30
0.0
 40
325.0
  0
CIRCLE
  5
86
330
1F
100
AcDbEntity
  8
0
  6
Continuous
 62
     7
370
    25
100
AcDbCircle
 10
142.0054642038
 20
110.2579780167
 30
0.0
 40
355.0
  0
LINE
  5
87
330
1F
100
AcDbEntity
  8
0
  6
Continuous
 62
     7
370
    25
100
AcDbLine
 10
497.0054642038
 20
766.5864077105
 30
0.0
 11
497.0054642038
 21
831.5864077105
 31
0.0
  0
LINE
  5
88
330
1F
100
AcDbEntity
  8
0
  6
Continuous
 62
     7
370
    25
100
AcDbLine
 10
-212.9945357962
 20
831.5864077105
 30
0.0
 11
-212.9945357962
 21
766.5864077105
 31
0.0
  0
LINE
  5
89
330
1F
100
AcDbEntity
  8
0
  6
Continuous
 62
     7
370
    25
100
AcDbLine
 10
467.0054642038
 20
831.5864077105
 30
0.0
 11
457.0054642038
 21
856.5864077105
 31
0.0
  0
LINE
  5
8A
330
1F
100
AcDbEntity
  8
0
  6
Continuous
 62
     7
370
    25
100
AcDbLine
 10
-172.9945357962
 20
856.5864077105
 30
0.0
 11
-182.9945357962
 21
831.5864077105
 31
0.0
  0
LINE
  5
8B
330
1F
100
AcDbEntity
  8
0
  6
Continuous
 62
     7
370
    25
100
AcDbLine
 10
457.0054642038
 20
856.5864077105
 30
0.0
 11
457.0054642038
 21
906.5864077105
 31
0.0
  0
LINE
  5
8C
330
1F
100
AcDbEntity
  8
0
  6
Continuous
 62
     7
370
    25
100
AcDbLine
 10
-172.9945357962
 20
906.5864077105
 30
0.0
 11
-172.9945357962
 21
856.5864077105
 31
0.0
  0
LINE
  5
8D
330
1F
100
AcDbEntity
  8
0
  6
Continuous
 62
     7
370
    25
100
AcDbLine
 10
497.0054642038
 20
766.5864077105
 30
0.0
 11
-212.9945357962
 21
766.5864077105
 31
0.0
  0
LINE
  5
8E
330
1F
100
AcDbEntity
  8
0
  6
Continuous
 62
     7
370
    25
100
AcDbLine
 10
497.0054642038
 20
831.5864077105
 30
0.0
 11
-212.9945357962
 21
831.5864077105
 31
0.0
  0
LINE
  5
8F
330
1F
100
AcDbEntity
  8
0
  6
Continuous
 62
     7
370
    25
100
AcDbLine
 10
457.0054642038
 20
856.5864077105
 30
0.0
 11
-172.9945357962
 21
856.5864077105
 31
0.0
  0
LINE
  5
90
330
1F
100
AcDbEntity
  8
0
  6
Continuous
 62
     7
370
    25
100
AcDbLine
 10
457.0054642038
 20
906.5864077105
 30
0.0
 11
-172.9945357962
 21
906.5864077105
 31
0.0
  0
LINE
  5
91
330
1F
100
AcDbEntity
  8
0
  6
Continuous
 62
     7
370
    25
100
AcDbLine
 10
-471.341526519
 20
465.2579780167
 30
0.0
 11
-536.341526519
 21
465.2579780167
 31
0.0
  0
LINE
  5
92
330
1F
100
AcDbEntity
  8
0
  6
Continuous
 62
     7
370
    25
100
AcDbLine
 10
-536.341526519
 20
-244.7420219833
 30
0.0
 11
-471.341526519
 21
-244.7420219833
 31
0.0
  0
LINE
  5
93
330
1F
100
AcDbEntity
  8
0
  6
Continuous
 62
     7
370
    25
100
AcDbLine
 10
-536.341526519
 20
435.2579780167
 30
0.0
 11
-561.341526519
 21
425.2579780167
 31
0.0
  0
LINE
  5
94
330
1F
100
AcDbEntity
  8
0
  6
Continuous
 62
     7
370
    25
100
AcDbLine
 10
-561.341526519
 20
-204.7420219833
 30
0.0
 11
-536.341526519
 21
-214.7420219833
 31
0.0
  0
LINE
  5
95
330
1F
100
AcDbEntity
  8
0
  6
Continuous
 62
     7
370
    25
100
AcDbLine
 10
-561.341526519
 20
425.2579780167
 30
0.0
 11
-611.341526519
 21
425.2579780167
 31
0.0
  0
LINE
  5
96
330
1F
100
AcDbEntity
  8
0
  6
Continuous
 62
     7
370
    25
100
AcDbLine
 10
-611.341526519
 20
-204.7420219833
 30
0.0
 11
-561.341526519
 21
-204.7420219833
 31
0.0
  0
LINE
  5
97
330
1F
100
AcDbEntity
  8
0
  6
Continuous
 62
     7
370
    25
100
AcDbLine
 10
-471.341526519
 20
465.2579780167
 30
0.0
 11
-471.341526519
 21
-244.7420219833
 31
0.0
  0
LINE
  5
98
330
1F
100
AcDbEntity
  8
0
  6
Continuous
 62
     7
370
    25
100
AcDbLine
 10
-536.341526519
 20
465.2579780167
 30
0.0
 11
-536.341526519
 21
-244.7420219833
 31
0.0
  0
LINE
  5
99
330
1F
100
AcDbEntity
  8
0
  6
Continuous
 62
     7
370
    25
100
AcDbLine
 10
-561.341526519
 20
425.2579780167
 30
0.0
 11
-561.341526519
 21
-204.7420219833
 31
0.0
  0
LINE
  5
9A
330
1F
100
AcDbEntity
  8
0
  6
Continuous
 62
     7
370
    25
100
AcDbLine
 10
-611.341526519
 20
425.2579780167
 30
0.0
 11
-611.341526519
 21
-204.7420219833
 31
0.0
  0
LINE
  5
9B
330
1F
100
AcDbEntity
  8
0
  6
Continuous
 62
     7
370
    25
100
AcDbLine
 10
-212.9945357962
 20
-671.428541808
 30
0.0
 11
-212.9945357962
 21
-736.428541808
 31
0.0
  0
LINE
  5
9C
330
1F
100
AcDbEntity
  8
0
  6
Continuous
 62
     7
370
    25
100
AcDbLine
 10
497.0054642038
 20
-736.428541808
 30
0.0
 11
497.0054642038
 21
-671.428541808
 31
0.0
  0
LINE
  5
9D
330
1F
100
AcDbEntity
  8
0
  6
Continuous
 62
     7
370
    25
100
AcDbLine
 10
-182.9945357962
 20
-736.428541808
 30
0.0
 11
-172.9945357962
 21
-761.428541808
 31
0.0
  0
LINE
  5
9E
330
1F
100
AcDbEntity
  8
0
  6
Continuous
 62
     7
370
    25
100
AcDbLine
 10
457.0054642038
 20
-761.428541808
 30
0.0
 11
467.0054642038
 21
-736.428541808
 31
0.0
  0
LINE
  5
9F
330
1F
100
AcDbEntity
  8
0
  6
Continuous
 62
     7
370
    25
100
AcDbLine
 10
-172.9945357962
 20
-761.428541808
 30
0.0
 11
-172.9945357962
 21
-811.428541808
 31
0.0
  0
LINE
  5
A0
330
1F
100
AcDbEntity
  8
0
  6
Continuous
 62
     7
370
    25
100
AcDbLine
 10
457.0054642038
 20
-811.428541808
 30
0.0
 11
457.0054642038
 21
-761.428541808
 31
0.0
  0
LINE
  5
A1
330
1F
100
AcDbEntity
  8
0
  6
Continuous
 62
     7
370
    25
100
AcDbLine
 10
-212.9945357962
 20
-671.428541808
 30
0.0
 11
497.0054642038
 21
-671.428541808
 31
0.0
  0
LINE
  5
A2
330
1F
100
AcDbEntity
  8
0
  6
Continuous
 62
     7
370
    25
100
AcDbLine
 10
-212.9945357962
 20
-736.428541808
 30
0.0
 11
497.0054642038
 21
-736.428541808
 31
0.0
  0
LINE
  5
A3
330
1F
100
AcDbEntity
  8
0
  6
Continuous
 62
     7
370
    25
100
AcDbLine
 10
-172.9945357962
 20
-761.428541808
 30
0.0
 11
457.0054642038
 21
-761.428541808
 31
0.0
  0
LINE
  5
A4
330
1F
100
AcDbEntity
  8
0
  6
Continuous
 62
     7
370
    25
100
AcDbLine
 10
-172.9945357962
 20
-811.428541808
 30
0.0
 11
457.0054642038
 21
-811.428541808
 31
0.0
  0
LINE
  5
A5
330
1F
100
AcDbEntity
  8
0
  6
Continuous
 62
     7
370
    25
100
AcDbLine
 10
993.2583660886
 20
-244.7420219833
 30
0.0
 11
1058.2583660886
 21
-244.7420219833
 31
0.0
  0
LINE
  5
A6
330
1F
100
AcDbEntity
  8
0
  6
Continuous
 62
     7
370
    25
100
AcDbLine
 10
1058.2583660886
 20
465.2579780167
 30
0.0
 11
993.2583660886
 21
465.2579780167
 31
0.0
  0
LINE
  5
A7
330
1F
100
AcDbEntity
  8
0
  6
Continuous
 62
     7
370
    25
100
AcDbLine
 10
1058.2583660886
 20
-214.7420219833
 30
0.0
 11
1083.2583660886
 21
-204.7420219833
 31
0.0
  0
LINE
  5
A8
330
1F
100
AcDbEntity
  8
0
  6
Continuous
 62
     7
370
    25
100
AcDbLine
 10
1083.2583660886
 20
425.2579780167
 30
0.0
 11
1058.2583660886
 21
435.2579780167
 31
0.0
  0
LINE
  5
A9
330
1F
100
AcDbEntity
  8
0
  6
Continuous
 62
     7
370
    25
100
AcDbLine
 10
1083.2583660886
 20
-204.7420219833
 30
0.0
 11
1133.2583660886
 21
-204.7420219833
 31
0.0
  0
LINE
  5
AA
330
1F
100
AcDbEntity
  8
0
  6
Continuous
 62
     7
370
    25
100
AcDbLine
 10
1133.2583660886
 20
425.2579780167
 30
0.0
 11
1083.2583660886
 21
425.2579780167
 31
0.0
  0
LINE
  5
AB
330
1F
100
AcDbEntity
  8
0
  6
Continuous
 62
     7
370
    25
100
AcDbLine
 10
993.2583660886
 20
110.2579780167
 30
0.0
 11
993.2583660886
 21
465.2579780167
 31
0.0
  0
LINE
  5
AC
330
1F
100
AcDbEntity
  8
0
  6
Continuous
 62
     7
370
    25
100
AcDbLine
 10
993.2583660886
 20
-244.7420219833
 30
0.0
 11
993.2583660886
 21
110.2579780167
 31
0.0
  0
LINE
  5
AD
330
1F
100
AcDbEntity
  8
0
  6
Continuous
 62
     7
370
    25
100
AcDbLine
 10
1058.2583660886
 20
110.2579780167
 30
0.0
 11
1058.2583660886
 21
465.2579780167
 31
0.0
  0
LINE
  5
AE
330
1F
100
AcDbEntity
  8
0
  6
Continuous
 62
     7
370
    25
100
AcDbLine
 10
1058.2583660886
 20
-244.7420219833
 30
0.0
 11
1058.2583660886
 21
110.2579780167
 31
0.0
  0
LINE
  5
AF
330
1F
100
AcDbEntity
  8
0
  6
Continuous
 62
     7
370
    25
100
AcDbLine
 10
1083.2583660886
 20
110.2579780167
 30
0.0
 11
1083.2583660886
 21
425.2579780167
 31
0.0
  0
LINE
  5
B0
330
1F
100
AcDbEntity
  8
0
  6
Continuous
 62
     7
370
    25
100
AcDbLine
 10
1083.2583660886
 20
-204.7420219833
 30
0.0
 11
1083.2583660886
 21
110.2579780167
 31
0.0
  0
LINE
  5
B1
330
1F
100
AcDbEntity
  8
0
  6
Continuous
 62
     7
370
    25
100
AcDbLine
 10
1133.2583660886
 20
110.2579780167
 30
0.0
 11
1133.2583660886
 21
425.2579780167
 31
0.0
  0
LINE
  5
B2
330
1F
100
AcDbEntity
  8
0
  6
Continuous
 62
     7
370
    25
100
AcDbLine
 10
1133.2583660886
 20
-204.7420219833
 30
0.0
 11
1133.2583660886
 21
110.2579780167
 31
0.0
  0
LINE
  5
B3
330
1F
100
AcDbEntity
  8
0
  6
Continuous
 62
     7
370
    25
100
AcDbLine
 10
1212.6566670936
 20
-398.0748002835
 30
0.0
 11
1166.6947263165
 21
-371.5415366493
 31
0.0
  0
LINE
  5
B4
330
1F
100
AcDbEntity
  8
0
  6
Continuous
 62
     7
370
    25
100
AcDbLine
 10
811.7235762307
 20
-986.4362289395
 30
0.0
 11
857.6855170078
 21
-1012.9694925738
 31
0.0
  0
LINE
  5
B5
330
1F
100
AcDbEntity
  8
0
  6
Continuous
 62
     7
370
    25
100
AcDbLine
 10
1129.0186821341
 20
-395.9783897467
 30
0.0
 11
1093.6633430748
 21
-375.5681869511
 31
0.0
  0
LINE
  5
B6
330
1F
100
AcDbEntity
  8
0
  6
Continuous
 62
     7
370
    25
100
AcDbLine
 10
778.6889422944
 20
-921.178970251
 30
0.0
 11
814.0442813538
 21
-941.5891730465
 31
0.0
  0
LWPOLYLINE
  5
B7
330
1F
100
AcDbEntity
  8
0
  6
Continuous
 62
     7
370
    25
100
AcDbPolyline
 90
      102
 70
   128
 43
0.0
 10
1212.6566670936
 20
-398.0748002835
 10
1212.6710920507
 20
-398.0831289875
 10
1218.158916252
 20
-401.4544934305
 10
1223.4661535632
 20
-405.1259359366
 10
1228.5875663818
 20
-409.0938332352
 10
1233.5181004917
 20
-413.3542694906
 10
1238.252890051
 20
-417.9030401667
 10
1242.787262394
 20
-422.7356561761
 10
1247.1167426428
 20
-427.8473483101
 10
1251.2370581228
 20
-433.2330719457
 10
1255.1441425804
 20
-438.887512024
 10
1258.8341401947
 20
-444.8050882953
 10
1262.3034093837
 20
-450.9799608262
 10
1265.5485263974
 20
-457.406035763
 10
1268.5662886973
 20
-464.0769713457
 10
1271.3537181163
 20
-470.9861841661
 10
1273.9080637979
 20
-478.1268556654
 10
1276.2268049116
 20
-485.4919388629
 10
1278.3076531396
 20
-493.0741653107
 10
1280.1485549361
 20
-500.8660522668
 10
1281.7476935532
 20
-508.8599100793
 10
1283.1034908342
 20
-517.0478497758
 10
1284.2146087708
 20
-525.4217908483
 10
1285.0799508238
 20
-533.973469228
 10
1285.6986630051
 20
-542.6944454408
 10
1286.0701347204
 20
-551.576112936
 10
1286.193999372
 20
-560.6097065801
 10
1286.0701347204
 20
-569.7863113069
 10
1285.6986630051
 20
-579.0968709153
 10
1285.0799508238
 20
-588.5321970072
 10
1284.2146087708
 20
-598.0829780548
 10
1283.1034908342
 20
-607.7397885903
 10
1281.7476935532
 20
-617.4930985076
 10
1280.1485549361
 20
-627.3332824673
 10
1278.3076531396
 20
-637.2506293958
 10
1276.2268049116
 20
-647.2353520692
 10
1273.9080637979
 20
-657.2775967715
 10
1271.3537181163
 20
-667.3674530197
 10
1268.5662886973
 20
-677.4949633439
 10
1265.5485263974
 20
-687.650133114
 10
1262.3034093837
 20
-697.8229404035
 10
1258.8341401947
 20
-708.0033458798
 10
1255.1441425804
 20
-718.1813027118
 10
1251.2370581228
 20
-728.3467664849
 10
1247.1167426428
 20
-738.4897051137
 10
1242.787262394
 20
-748.6001087423
 10
1238.252890051
 20
-758.6679996229
 10
1233.5181004917
 20
-768.6834419628
 10
1228.5875663818
 20
-778.6365517296
 10
1223.4661535632
 20
-788.5175064056
 10
1218.158916252
 20
-798.3165546814
 10
1212.6710920507
 20
-808.0240260794
 10
1207.0080967793
 20
-817.6303404975
 10
1201.1755191303
 20
-827.126017663
 10
1195.1791151537
 20
-836.501686489
 10
1189.0248025764
 20
-845.7480943223
 10
1182.7186549617
 20
-854.8561160747
 10
1176.2668957161
 20
-863.8167632284
 10
1169.675891947
 20
-872.6211927065
 10
1162.9521481793
 20
-881.2607156
 10
1156.1022999364
 20
-889.7268057429
 10
1149.1331071916
 20
-898.0111081263
 10
1142.0514476966
 20
-906.105447144
 10
1134.8643101944
 20
-914.0018346607
 10
1127.578787522
 20
-921.6924778951
 10
1120.2020696107
 20
-929.1697871109
 10
1112.7414363904
 20
-936.4263831066
 10
1105.2042506055
 20
-943.4551044982
 10
1097.5979505482
 20
-950.2490147861
 10
1089.9300427186
 20
-956.8014092013
 10
1082.2080944157
 20
-963.1058213213
 10
1074.4397262704
 20
-969.1560294527
 10
1066.632604724
 20
-974.9460627705
 10
1058.794434463
 20
-980.4702072108
 10
1050.9329508152
 20
-985.7230111099
 10
1043.0559121157
 20
-990.6992905847
 10
1035.1710920507
 20
-995.3941346481
 10
1027.2862719858
 20
-999.8029100557
 10
1019.4092332863
 20
-1003.9212658786
 10
1011.5477496384
 20
-1007.7451377968
 10
1003.7095793775
 20
-1011.2707521103
 10
995.9024578311
 20
-1014.4946294635
 10
988.1340896858
 20
-1017.4135882786
 10
980.4121413829
 20
-1020.0247478957
 10
972.7442335532
 20
-1022.3255314156
 10
965.137933496
 20
-1024.3136682426
 10
957.6007477111
 20
-1025.9871963257
 10
950.1401144908
 20
-1027.3444640948
 10
942.7633965795
 20
-1028.3841320904
 10
935.4778739071
 20
-1029.1051742858
 10
928.2907364049
 20
-1029.5068790994
 10
921.2090769099
 20
-1029.5888500969
 10
914.239884165
 20
-1029.351006383
 10
907.3900359222
 20
-1028.7935826806
 10
900.6662921545
 20
-1027.9171290997
 10
894.0752883854
 20
-1026.7225105941
 10
887.6235291397
 20
-1025.2109061081
 10
881.3173815251
 20
-1023.3838074128
 10
875.1630689477
 20
-1021.2430176339
 10
869.1666649712
 20
-1018.7906494727
 10
863.3340873222
 20
-1016.0291231203
 10
857.6855170078
 20
-1012.9694925738
  0
LWPOLYLINE
  5
B8
330
1F
100
AcDbEntity
  8
0
  6
Continuous
 62
     7
370
    25
100
AcDbPolyline
 90
      135
 70
   128
 43
0.0
 10
1052.6760341264
 20
-361.8962052026
 10
1059.2423098283
 20
-360.1973609805
 10
1066.7794956133
 20
-358.5238328973
 10
1074.2401288335
 20
-357.1665651282
 10
1081.6168467448
 20
-356.1268971326
 10
1088.9023694172
 20
-355.4058549372
 10
1096.0895069194
 20
-355.0041501237
 10
1103.1711664144
 20
-354.9221791261
 10
1110.1403591593
 20
-355.16002284
 10
1116.9902074022
 20
-355.7174465424
 10
1123.7139511699
 20
-356.5939001233
 10
1130.304954939
 20
-357.7885186289
 10
1136.7567141846
 20
-359.3001231149
 10
1143.0628617993
 20
-361.1272218103
 10
1149.2171743766
 20
-363.2680115891
 10
1155.2135783532
 20
-365.7203797504
 10
1161.0461560022
 20
-368.4819061028
 10
1166.7091512736
 20
-371.5498653532
 10
1172.1969754749
 20
-374.9212297963
 10
1177.5042127861
 20
-378.5926723024
 10
1182.6256256047
 20
-382.5605696009
 10
1187.5561597146
 20
-386.8210058564
 10
1192.2909492739
 20
-391.3697765325
 10
1196.8253216169
 20
-396.2023925418
 10
1201.1548018656
 20
-401.3140846758
 10
1205.2751173457
 20
-406.6998083115
 10
1209.1822018032
 20
-412.3542483898
 10
1212.8721994176
 20
-418.2718246611
 10
1216.3414686065
 20
-424.446697192
 10
1219.5865856203
 20
-430.8727721288
 10
1222.6043479202
 20
-437.5437077114
 10
1225.3917773391
 20
-444.4529205319
 10
1227.9461230208
 20
-451.5935920312
 10
1230.2648641345
 20
-458.9586752287
 10
1232.3457123625
 20
-466.5409016765
 10
1234.186614159
 20
-474.3327886325
 10
1235.7857527761
 20
-482.3266464451
 10
1237.1415500571
 20
-490.5145861416
 10
1238.2526679937
 20
-498.8885272141
 10
1239.1180100467
 20
-507.4402055938
 10
1239.736722228
 20
-516.1611818065
 10
1240.1081939433
 20
-525.0428493017
 10
1240.2320585948
 20
-534.0764429459
 10
1240.1081939433
 20
-543.2530476726
 10
1239.736722228
 20
-552.5636072811
 10
1239.1180100467
 20
-561.998933373
 10
1238.2526679937
 20
-571.5497144206
 10
1237.1415500571
 20
-581.2065249561
 10
1235.7857527761
 20
-590.9598348733
 10
1234.186614159
 20
-600.800018833
 10
1232.3457123625
 20
-610.7173657616
 10
1230.2648641345
 20
-620.7020884349
 10
1227.9461230208
 20
-630.7443331373
 10
1225.3917773391
 20
-640.8341893855
 10
1222.6043479202
 20
-650.9616997096
 10
1219.5865856203
 20
-661.1168694797
 10
1216.3414686065
 20
-671.2896767692
 10
1212.8721994176
 20
-681.4700822455
 10
1209.1822018032
 20
-691.6480390776
 10
1205.2751173457
 20
-701.8135028507
 10
1201.1548018656
 20
-711.9564414795
 10
1196.8253216169
 20
-722.066845108
 10
1192.2909492739
 20
-732.1347359887
 10
1187.5561597146
 20
-742.1501783286
 10
1182.6256256047
 20
-752.1032880954
 10
1177.5042127861
 20
-761.9842427713
 10
1172.1969754749
 20
-771.7832910471
 10
1166.7091512736
 20
-781.4907624452
 10
1161.0461560022
 20
-791.0970768633
 10
1155.2135783532
 20
-800.5927540288
 10
1149.2171743766
 20
-809.9684228548
 10
1143.0628617993
 20
-819.2148306881
 10
1136.7567141846
 20
-828.3228524405
 10
1130.304954939
 20
-837.2834995942
 10
1123.7139511699
 20
-846.0879290722
 10
1116.9902074022
 20
-854.7274519657
 10
1110.1403591593
 20
-863.1935421086
 10
1103.1711664144
 20
-871.4778444921
 10
1096.0895069194
 20
-879.5721835098
 10
1088.9023694172
 20
-887.4685710264
 10
1081.6168467448
 20
-895.1592142608
 10
1074.2401288335
 20
-902.6365234766
 10
1066.7794956133
 20
-909.8931194724
 10
1059.2423098283
 20
-916.921840864
 10
1051.6360097711
 20
-923.7157511519
 10
1043.9681019414
 20
-930.268145567
 10
1036.2461536386
 20
-936.5725576871
 10
1028.4777854932
 20
-942.6227658185
 10
1020.6706639469
 20
-948.4127991363
 10
1012.8324936859
 20
-953.9369435765
 10
1004.9710100381
 20
-959.1897474757
 10
997.0939713386
 20
-964.1660269505
 10
989.2091512736
 20
-968.8608710138
 10
981.3243312087
 20
-973.2696464215
 10
973.4472925092
 20
-977.3880022444
 10
965.5858088613
 20
-981.2118741626
 10
957.7476386003
 20
-984.7374884761
 10
949.940517054
 20
-987.9613658293
 10
942.1721489086
 20
-990.8803246444
 10
934.4502006058
 20
-993.4914842615
 10
926.7822927761
 20
-995.7922677813
 10
919.1759927189
 20
-997.7804046083
 10
911.6388069339
 20
-999.4539326915
 10
904.1781737137
 20
-1000.8112004606
 10
896.8014558024
 20
-1001.8508684562
 10
889.51593313
 20
-1002.5719106516
 10
882.3287956278
 20
-1002.9736154651
 10
875.2471361328
 20
-1003.0555864627
 10
868.2779433879
 20
-1002.8177427488
 10
861.428095145
 20
-1002.2603190464
 10
854.7043513774
 20
-1001.3838654655
 10
848.1133476082
 20
-1000.1892469599
 10
841.6615883626
 20
-998.6776424739
 10
835.355440748
 20
-996.8505437785
 10
829.2011281706
 20
-994.7097539997
 10
823.204724194
 20
-992.2573858384
 10
817.3721465451
 20
-989.495859486
 10
811.7091512736
 20
-986.4279002356
 10
806.2213270723
 20
-983.0565357925
 10
800.9140897611
 20
-979.3850932864
 10
795.7926769425
 20
-975.4171959879
 10
790.8621428326
 20
-971.1567597324
 10
786.1273532733
 20
-966.6079890563
 10
781.5929809303
 20
-961.7753730469
 10
777.2635006816
 20
-956.663680913
 10
773.1431852015
 20
-951.2779572773
 10
769.236100744
 20
-945.623517199
 10
765.5461031297
 20
-939.7059409277
 10
762.0768339407
 20
-933.5310683968
 10
758.8317169269
 20
-927.10499346
 10
755.813954627
 20
-920.4340578774
 10
753.0265252081
 20
-913.5248450569
 10
750.4721795264
 20
-906.3841735576
 10
748.1534384128
 20
-899.0190903601
 10
746.3523150399
 20
-892.5219446278
  0
LWPOLYLINE
  5
B9
330
1F
100
AcDbEntity
  8
0
  6
Continuous
 62
     7
370
    25
100
AcDbPolyline
 90
      112
 70
   128
 43
0.0
 10
1106.6931012334
 20
-383.0901062275
 10
1112.7300892875
 20
-383.8986930679
 10
1119.0371201063
 20
-385.0701868712
 10
1125.2036684664
 20
-386.5597201651
 10
1131.2230617542
 20
-388.3656811758
 10
1137.0887865875
 20
-390.4861157341
 10
1142.7944958636
 20
-392.9187293893
 10
1148.3340156274
 20
-395.6608898923
 10
1153.7013517516
 20
-398.709630044
 10
1158.8906964233
 20
-402.0616509055
 10
1163.8964344277
 20
-405.7133253685
 10
1168.713149225
 20
-409.6607020793
 10
1173.3356288109
 20
-413.8995097149
 10
1177.7588713563
 20
-418.4251616049
 10
1181.9780906199
 20
-423.2327606942
 10
1185.9887211271
 20
-428.3171048423
 10
1189.7864231101
 20
-433.6726924521
 10
1193.367087204
 20
-439.2937284233
 10
1196.7268388931
 20
-445.1741304227
 10
1199.8620427035
 20
-451.3075354659
 10
1202.7693061373
 20
-457.6873068028
 10
1205.4454833428
 20
-464.3065410981
 10
1207.8876785191
 20
-471.1580759021
 10
1210.0932490493
 20
-478.2344974005
 10
1212.0598083601
 20
-485.5281484367
 10
1213.785228504
 20
-493.0311367973
 10
1215.2676424623
 20
-500.7353437521
 10
1216.5054461649
 20
-508.632432839
 10
1217.4973002262
 20
-516.7138588848
 10
1218.2421313944
 20
-524.9708772514
 10
1218.7391337129
 20
-533.3945532981
 10
1218.9877693923
 20
-541.9757720497
 10
1218.9877693923
 20
-550.7052480593
 10
1218.7391337129
 20
-559.5735354559
 10
1218.2421313944
 20
-568.5710381653
 10
1217.4973002262
 20
-577.6880202939
 10
1216.5054461649
 20
-586.9146166632
 10
1215.2676424623
 20
-596.240843485
 10
1213.785228504
 20
-605.6566091645
 10
1212.0598083601
 20
-615.1517252197
 10
1210.0932490493
 20
-624.7159173063
 10
1207.8876785191
 20
-634.3388363351
 10
1205.4454833428
 20
-644.0100696708
 10
1202.7693061373
 20
-653.7191523983
 10
1199.8620427035
 20
-663.4555786473
 10
1196.7268388931
 20
-673.2088129599
 10
1193.367087204
 20
-682.9683016908
 10
1189.7864231101
 20
-692.723484427
 10
1185.9887211271
 20
-702.4638054147
 10
1181.9780906199
 20
-712.1787249819
 10
1177.7588713563
 20
-721.8577309421
 10
1173.3356288109
 20
-731.4903499701
 10
1168.713149225
 20
-741.0661589343
 10
1163.8964344277
 20
-750.5747961754
 10
1158.8906964232
 20
-760.0059727181
 10
1153.7013517516
 20
-769.3494834051
 10
1148.3340156274
 20
-778.5952179391
 10
1142.7944958636
 20
-787.7331718231
 10
1137.0887865874
 20
-796.7534571859
 10
1131.2230617542
 20
-805.6463134817
 10
1125.2036684664
 20
-814.4021180508
 10
1119.0371201063
 20
-823.0113965332
 10
1112.7300892875
 20
-831.4648331194
 10
1106.289400635
 20
-839.7532806313
 10
1099.7220234002
 20
-847.8677704199
 10
1093.0350639203
 20
-855.7995220698
 10
1086.2357579282
 20
-863.5399529008
 10
1079.3314627232
 20
-871.080687254
 10
1072.3296492098
 20
-878.4135655555
 10
1065.2378938138
 20
-885.5306531456
 10
1058.0638702843
 20
-892.4242488643
 10
1050.8153413897
 20
-899.0868933843
 10
1043.5001505181
 20
-905.5113772834
 10
1036.1262131906
 20
-911.6907488444
 10
1028.7015084954
 20
-917.6183215782
 10
1021.2340704548
 20
-923.2876814586
 10
1013.7319793312
 20
-928.6926938629
 10
1006.2033528838
 20
-933.8275102096
 10
998.6563375851
 20
-938.6865742876
 10
991.0990998052
 20
-943.2646282677
 10
983.5398169758
 20
-947.5567183924
 10
975.9866687416
 20
-951.5582003361
 10
968.447828109
 20
-955.2647442302
 10
960.9314526027
 20
-958.6723393489
 10
953.4456754388
 20
-961.7772984486
 10
945.9985967238
 20
-964.576261758
 10
938.5982746899
 20
-967.0662006135
 10
931.2527169757
 20
-969.2444207363
 10
923.9698719609
 20
-971.108565148
 10
916.7576201661
 20
-972.656616721
 10
909.6237657252
 20
-973.8869003609
 10
902.5760279412
 20
-974.7980848195
 10
895.622032933
 20
-975.3891841346
 10
888.7693053836
 20
-975.6595586979
 10
882.025260398
 20
-975.608915946
 10
875.3971954794
 20
-975.2373106779
 10
868.8922826329
 20
-974.545144995
 10
862.517560605
 20
-973.5331678663
 10
856.2799272669
 20
-972.2024743182
 10
850.186132151
 20
-970.5545042493
 10
844.2427691471
 20
-968.5910408721
 10
838.4562693675
 20
-966.3142087842
 10
832.832894188
 20
-963.7264716686
 10
827.3787284731
 20
-960.8306296281
 10
822.099673991
 20
-957.6298161557
 10
817.0014430284
 20
-954.1274947434
 10
812.0895522087
 20
-950.327455135
 10
807.369316523
 20
-946.2338092248
 10
802.8458435788
 20
-941.8509866089
 10
798.5240280735
 20
-937.1837297914
 10
794.4085464975
 20
-932.2370890534
 10
791.718700453
 20
-928.7008895274
  0
LWPOLYLINE
  5
BA
330
1F
100
AcDbEntity
  8
0
  6
Continuous
 62
     7
370
    25
100
AcDbPolyline
 90
      189
 70
   128
 43
0.0
 10
713.4375066109
 20
-776.9578562131
 10
713.5618919439
 20
-768.2913719655
 10
713.9349090205
 20
-759.4909548274
 10
714.5561412282
 20
-750.5664337432
 10
715.4248947296
 20
-741.5277762653
 10
716.540199238
 20
-732.3850774221
 10
717.9008091003
 20
-723.1485484429
 10
719.5052046887
 20
-713.8285053532
 10
721.3515940978
 20
-704.4353574533
 10
723.4379151461
 20
-694.979595692
 10
725.7618376788
 20
-685.4717809501
 10
728.3207661707
 20
-675.9225322447
 10
731.1118426248
 20
-666.3425148695
 10
734.1319497645
 20
-656.7424284828
 10
737.377714515
 20
-647.1329951575
 10
740.8455117709
 20
-637.5249474058
 10
744.5314684445
 20
-627.9290161924
 10
748.4314677921
 20
-618.3559189492
 10
752.5411540116
 20
-608.8163476059
 10
756.8559371072
 20
-599.3209566476
 10
761.3709980161
 20
-589.8803512157
 10
766.0812939909
 20
-580.5050752633
 10
770.9815642314
 20
-571.2055997785
 10
776.0663357601
 20
-561.9923110902
 10
781.3299295356
 20
-552.8754992675
 10
786.7664667943
 20
-543.8653466272
 10
792.3698756172
 20
-534.9719163613
 10
798.1338977108
 20
-526.205141298
 10
804.052095397
 20
-517.5748128074
 10
810.1178588035
 20
-509.0905698665
 10
816.3244132457
 20
-500.7618882934
 10
822.6648267932
 20
-492.5980701636
 10
829.1320180124
 20
-484.6082334215
 10
835.718763875
 20
-476.8013016964
 10
842.4177078253
 20
-469.1859943359
 10
849.2213679969
 20
-461.7708166677
 10
856.1221455685
 20
-454.5640505001
 10
863.1123332511
 20
-447.5737448723
 10
870.1841238962
 20
-440.8077070647
 10
877.3296192149
 20
-434.2734938792
 10
884.5408385996
 20
-427.978403199
 10
891.8097280376
 20
-421.9294658381
 10
899.1281691057
 20
-416.1334376884
 10
906.4879880382
 20
-410.5967921747
 10
913.8809648554
 20
-405.3257130243
 10
921.2988425445
 20
-400.3260873607
 10
928.7333362815
 20
-395.6034991286
 10
936.1761426846
 20
-391.163222857
 10
943.6189490877
 20
-387.0102177687
 10
951.0534428248
 20
-383.1491222409
 10
958.4713205138
 20
-379.5842486252
 10
965.864297331
 20
-376.319578431
 10
973.2241162635
 20
-373.3587578789
 10
980.5425573317
 20
-370.705093828
 10
987.8114467696
 20
-368.3615500829
 10
995.0226661544
 20
-366.3307440831
 10
1002.168161473
 20
-364.6149439802
 10
1009.2399521181
 20
-363.2160661041
 10
1016.2301398008
 20
-362.1356728231
 10
1023.1309173724
 20
-361.3749707989
 10
1029.9345775439
 20
-360.9348096386
 10
1036.6335214943
 20
-360.8156809462
 10
1043.2202673568
 20
-361.0177177731
 10
1049.687458576
 20
-361.5406944701
 10
1056.0278721236
 20
-362.3840269387
 10
1062.2344265657
 20
-363.5467732842
 10
1068.3001899722
 20
-365.0276348671
 10
1074.2183876585
 20
-366.8249577537
 10
1079.9824097521
 20
-368.9367345635
 10
1085.5858185749
 20
-371.3606067109
 10
1091.0223558337
 20
-374.0938670397
 10
1096.2859496091
 20
-377.1334628464
 10
1101.3707211379
 20
-380.4759992901
 10
1106.2709913783
 20
-384.1177431834
 10
1110.9812873531
 20
-388.0546271628
 10
1115.4963482621
 20
-392.2822542305
 10
1119.8111313577
 20
-396.7959026661
 10
1123.9208175771
 20
-401.5905312994
 10
1127.8208169247
 20
-406.6607851415
 10
1131.5067735984
 20
-412.001001365
 10
1134.9745708542
 20
-417.6052156291
 10
1138.2203356047
 20
-423.4671687408
 10
1141.2404427444
 20
-429.5803136457
 10
1144.0315191985
 20
-435.93782274
 10
1146.5904476904
 20
-442.5325954964
 10
1148.9143702231
 20
-449.3572663943
 10
1151.0006912714
 20
-456.4042131463
 10
1152.8470806806
 20
-463.665565211
 10
1154.451476269
 20
-471.1332125836
 10
1155.8120861313
 20
-478.798814854
 10
1156.9273906396
 20
-486.6538105213
 10
1157.7961441411
 20
-494.6894265568
 10
1158.4173763487
 20
-502.8966882014
 10
1158.7903934253
 20
-511.26642899
 10
1158.9147787584
 20
-519.789300989
 10
1158.7903934253
 20
-528.4557852366
 10
1158.4173763487
 20
-537.2562023747
 10
1157.7961441411
 20
-546.1807234589
 10
1156.9273906396
 20
-555.2193809368
 10
1155.8120861313
 20
-564.36207978
 10
1154.451476269
 20
-573.5986087592
 10
1152.8470806806
 20
-582.9186518489
 10
1151.0006912714
 20
-592.3117997488
 10
1148.9143702231
 20
-601.7675615101
 10
1146.5904476904
 20
-611.275376252
 10
1144.0315191985
 20
-620.8246249574
 10
1141.2404427444
 20
-630.4046423326
 10
1138.2203356047
 20
-640.0047287192
 10
1134.9745708542
 20
-649.6141620446
 10
1131.5067735984
 20
-659.2222097963
 10
1127.8208169247
 20
-668.8181410097
 10
1123.9208175771
 20
-678.3912382528
 10
1119.8111313577
 20
-687.9308095962
 10
1115.4963482621
 20
-697.4262005545
 10
1110.9812873531
 20
-706.8668059864
 10
1106.2709913783
 20
-716.2420819388
 10
1101.3707211379
 20
-725.5415574236
 10
1096.2859496091
 20
-734.7548461119
 10
1091.0223558337
 20
-743.8716579346
 10
1085.5858185749
 20
-752.8818105749
 10
1079.9824097521
 20
-761.7752408408
 10
1074.2183876585
 20
-770.5420159041
 10
1068.3001899722
 20
-779.1723443947
 10
1062.2344265657
 20
-787.6565873355
 10
1056.0278721236
 20
-795.9852689087
 10
1049.687458576
 20
-804.1490870385
 10
1043.2202673568
 20
-812.1389237805
 10
1036.6335214943
 20
-819.9458555057
 10
1029.9345775439
 20
-827.5611628662
 10
1023.1309173724
 20
-834.9763405344
 10
1016.2301398008
 20
-842.183106702
 10
1009.2399521181
 20
-849.1734123298
 10
1002.168161473
 20
-855.9394501374
 10
995.0226661544
 20
-862.4736633229
 10
987.8114467696
 20
-868.768754003
 10
980.5425573317
 20
-874.817691364
 10
973.2241162635
 20
-880.6137195137
 10
965.864297331
 20
-886.1503650274
 10
958.4713205138
 20
-891.4214441778
 10
951.0534428248
 20
-896.4210698414
 10
943.6189490877
 20
-901.1436580735
 10
936.1761426846
 20
-905.5839343451
 10
928.7333362815
 20
-909.7369394334
 10
921.2988425445
 20
-913.5980349612
 10
913.8809648554
 20
-917.1629085769
 10
906.4879880382
 20
-920.4275787711
 10
899.1281691057
 20
-923.3883993232
 10
891.8097280376
 20
-926.042063374
 10
884.5408385996
 20
-928.3856071192
 10
877.3296192148
 20
-930.416413119
 10
870.1841238962
 20
-932.1322132219
 10
863.1123332511
 20
-933.531091098
 10
856.1221455685
 20
-934.6114843789
 10
849.2213679969
 20
-935.3721864032
 10
842.4177078253
 20
-935.8123475635
 10
835.718763875
 20
-935.9314762559
 10
829.1320180124
 20
-935.729439429
 10
822.6648267932
 20
-935.206462732
 10
816.3244132456
 20
-934.3631302634
 10
810.1178588035
 20
-933.2003839178
 10
804.052095397
 20
-931.719522335
 10
798.1338977107
 20
-929.9221994484
 10
792.3698756172
 20
-927.8104226386
 10
786.7664667943
 20
-925.3865504912
 10
781.3299295356
 20
-922.6532901624
 10
776.0663357601
 20
-919.6136943557
 10
770.9815642314
 20
-916.271157912
 10
766.0812939909
 20
-912.6294140186
 10
761.3709980161
 20
-908.6925300393
 10
756.8559371072
 20
-904.4649029715
 10
752.5411540116
 20
-899.951254536
 10
748.4314677921
 20
-895.1566259027
 10
744.5314684445
 20
-890.0863720606
 10
740.8455117709
 20
-884.7461558371
 10
737.377714515
 20
-879.141941573
 10
734.1319497645
 20
-873.2799884613
 10
731.1118426248
 20
-867.1668435564
 10
728.3207661707
 20
-860.8093344621
 10
725.7618376788
 20
-854.2145617057
 10
723.4379151461
 20
-847.3898908077
 10
721.3515940978
 20
-840.3429440558
 10
719.5052046887
 20
-833.0815919911
 10
717.9008091003
 20
-825.6139446184
 10
716.540199238
 20
-817.9483423481
 10
715.4248947296
 20
-810.0933466807
 10
714.5561412282
 20
-802.0577306453
 10
713.9349090205
 20
-793.8504690007
 10
713.5618919439
 20
-785.4807282121
 10
713.4375066109
 20
-776.9578562131
  0
LWPOLYLINE
  5
BB
330
1F
100
AcDbEntity
  8
0
  6
Continuous
 62
     7
370
    25
100
AcDbPolyline
 90
      171
 70
   128
 43
0.0
 10
753.8840144947
 20
-753.608584215
 10
754.0085090547
 20
-745.7582684304
 10
754.38182269
 20
-737.7749368735
 10
755.003445499
 20
-729.6694938149
 10
755.8725284199
 20
-721.4530103149
 10
756.9878843898
 20
-713.1367091016
 10
758.3479899668
 20
-704.7319492422
 10
759.9509874101
 20
-696.2502106276
 10
761.794687218
 20
-687.7030782925
 10
763.8765711185
 20
-679.1022265917
 10
766.1937955085
 20
-670.4594032539
 10
768.7431953383
 20
-661.7864133363
 10
771.5212884343
 20
-653.0951030998
 10
774.5242802555
 20
-644.3973438287
 10
777.7480690763
 20
-635.7050156161
 10
781.188251589
 20
-627.0299911367
 10
784.840128918
 20
-618.3841194304
 10
788.6987130382
 20
-609.779209718
 10
792.7587335879
 20
-601.2270152711
 10
797.0146450672
 20
-592.7392173587
 10
801.4606344132
 20
-584.3274092917
 10
806.090628939
 20
-576.0030805881
 10
810.8983046291
 20
-567.7776012797
 10
815.8770947769
 20
-559.6622063816
 10
821.0201989537
 20
-551.6679805473
 10
826.3205922981
 20
-543.8058429277
 10
831.7710351102
 20
-536.0865322569
 10
837.3640827408
 20
-528.5205921848
 10
843.0920957595
 20
-521.1183568755
 10
848.9472503897
 20
-513.8899368921
 10
854.9215491943
 20
-506.8452053868
 10
861.0068319998
 20
-499.9937846154
 10
867.1947870418
 20
-493.3450327945
 10
873.4769623182
 20
-486.9080313195
 10
879.8447771332
 20
-480.69157236
 10
886.2895338176
 20
-474.7041468512
 10
892.802429609
 20
-468.9539328961
 10
899.3745686753
 20
-463.4487845954
 10
905.9969742649
 20
-458.1962213195
 10
912.6606009685
 20
-453.2034174379
 10
919.3563470735
 20
-448.4771925202
 10
926.075066996
 20
-444.0240020212
 10
932.807583773
 20
-439.8499284634
 10
939.5447015962
 20
-435.9606731291
 10
946.2772183732
 20
-432.3615482735
 10
952.9959382958
 20
-429.057469868
 10
959.6916844007
 20
-426.0529508864
 10
966.3553111043
 20
-423.3520951402
 10
972.977716694
 20
-420.9585916734
 10
979.5498557602
 20
-418.875709724
 10
986.0627515517
 20
-417.106294258
 10
992.5075082361
 20
-415.6527620842
 10
998.875323051
 20
-414.5170985528
 10
1005.1574983274
 20
-413.7008548434
 10
1011.3454533695
 20
-413.2051458467
 10
1017.430736175
 20
-413.0306486418
 10
1023.4050349796
 20
-413.1776015707
 10
1029.2601896097
 20
-413.6458039134
 10
1034.9882026285
 20
-414.4346161619
 10
1040.581250259
 20
-415.5429608935
 10
1046.0316930711
 20
-416.9693242426
 10
1051.3320864155
 20
-418.7117579684
 10
1056.4751905924
 20
-420.7678821162
 10
1061.4539807401
 20
-423.1348882675
 10
1066.2616564303
 20
-425.8095433767
 10
1070.8916509561
 20
-428.7881941868
 10
1075.337640302
 20
-432.0667722188
 10
1079.5935517814
 20
-435.6407993297
 10
1083.653572331
 20
-439.5053938283
 10
1087.5121564513
 20
-443.6552771434
 10
1091.1640337803
 20
-448.0847810335
 10
1094.604216293
 20
-452.7878553291
 10
1097.8280051138
 20
-457.7580761965
 10
1100.830996935
 20
-462.9886549118
 10
1103.609090031
 20
-468.4724471337
 10
1106.1584898607
 20
-474.2019626615
 10
1108.4757142507
 20
-480.1693756663
 10
1110.5575981512
 20
-486.3665353796
 10
1112.4012979592
 20
-492.7849772269
 10
1114.0042954025
 20
-499.4159343884
 10
1115.3644009794
 20
-506.2503497745
 10
1116.4797569494
 20
-513.2788883956
 10
1117.3488398702
 20
-520.4919501136
 10
1117.9704626793
 20
-527.8796827537
 10
1118.3437763146
 20
-535.4319955618
 10
1118.4682708745
 20
-543.1385729871
 10
1118.3437763146
 20
-550.9888887717
 10
1117.9704626793
 20
-558.9722203286
 10
1117.3488398702
 20
-567.0776633872
 10
1116.4797569494
 20
-575.2941468872
 10
1115.3644009794
 20
-583.6104481004
 10
1114.0042954025
 20
-592.0152079599
 10
1112.4012979592
 20
-600.4969465745
 10
1110.5575981512
 20
-609.0440789095
 10
1108.4757142507
 20
-617.6449306104
 10
1106.1584898607
 20
-626.2877539482
 10
1103.609090031
 20
-634.9607438658
 10
1100.830996935
 20
-643.6520541023
 10
1097.8280051138
 20
-652.3498133734
 10
1094.604216293
 20
-661.042141586
 10
1091.1640337803
 20
-669.7171660654
 10
1087.5121564512
 20
-678.3630377717
 10
1083.653572331
 20
-686.9679474841
 10
1079.5935517814
 20
-695.520141931
 10
1075.337640302
 20
-704.0079398434
 10
1070.8916509561
 20
-712.4197479104
 10
1066.2616564303
 20
-720.744076614
 10
1061.4539807401
 20
-728.9695559224
 10
1056.4751905924
 20
-737.0849508204
 10
1051.3320864155
 20
-745.0791766547
 10
1046.0316930711
 20
-752.9413142744
 10
1040.581250259
 20
-760.6606249452
 10
1034.9882026285
 20
-768.2265650173
 10
1029.2601896097
 20
-775.6288003266
 10
1023.4050349796
 20
-782.85722031
 10
1017.430736175
 20
-789.9019518153
 10
1011.3454533695
 20
-796.7533725867
 10
1005.1574983274
 20
-803.4021244076
 10
998.875323051
 20
-809.8391258826
 10
992.5075082361
 20
-816.0555848421
 10
986.0627515517
 20
-822.0430103509
 10
979.5498557602
 20
-827.793224306
 10
972.977716694
 20
-833.2983726067
 10
966.3553111043
 20
-838.5509358826
 10
959.6916844007
 20
-843.5437397642
 10
952.9959382958
 20
-848.2699646818
 10
946.2772183732
 20
-852.7231551809
 10
939.5447015962
 20
-856.8972287387
 10
932.807583773
 20
-860.7864840729
 10
926.075066996
 20
-864.3856089286
 10
919.3563470735
 20
-867.6896873341
 10
912.6606009685
 20
-870.6942063157
 10
905.9969742649
 20
-873.3950620619
 10
899.3745686753
 20
-875.7885655286
 10
892.802429609
 20
-877.8714474781
 10
886.2895338176
 20
-879.6408629441
 10
879.8447771332
 20
-881.0943951178
 10
873.4769623182
 20
-882.2300586493
 10
867.1947870418
 20
-883.0463023587
 10
861.0068319998
 20
-883.5420113553
 10
854.9215491942
 20
-883.7165085603
 10
848.9472503897
 20
-883.5695556314
 10
843.0920957595
 20
-883.1013532887
 10
837.3640827408
 20
-882.3125410402
 10
831.7710351102
 20
-881.2041963086
 10
826.3205922981
 20
-879.7778329595
 10
821.0201989537
 20
-878.0353992336
 10
815.8770947769
 20
-875.9792750859
 10
810.8983046291
 20
-873.6122689346
 10
806.090628939
 20
-870.9376138254
 10
801.4606344132
 20
-867.9589630153
 10
797.0146450672
 20
-864.6803849833
 10
792.7587335879
 20
-861.1063578724
 10
788.6987130382
 20
-857.2417633738
 10
784.840128918
 20
-853.0918800587
 10
781.188251589
 20
-848.6623761686
 10
777.7480690763
 20
-843.9593018729
 10
774.5242802555
 20
-838.9890810055
 10
771.5212884343
 20
-833.7585022903
 10
768.7431953383
 20
-828.2747100684
 10
766.1937955085
 20
-822.5451945406
 10
763.8765711185
 20
-816.5777815358
 10
761.794687218
 20
-810.3806218224
 10
759.9509874101
 20
-803.9621799752
 10
758.3479899668
 20
-797.3312228137
 10
756.9878843898
 20
-790.4968074276
 10
755.8725284199
 20
-783.4682688065
 10
755.003445499
 20
-776.2552070885
 10
754.3818226899
 20
-768.8674744484
 10
754.0085090547
 20
-761.3151616402
 10
753.8840144947
 20
-753.608584215
  0
LWPOLYLINE
  5
BC
330
1F
100
AcDbEntity
  8
0
  6
Continuous
 62
     7
370
    25
100
AcDbPolyline
 90
       96
 70
   128
 43
0.0
 10
1129.0186821341
 20
-395.9783897467
 10
1131.6412886684
 20
-397.543665642
 10
1136.7260601972
 20
-400.8862020856
 10
1141.6263304376
 20
-404.527945979
 10
1146.3366264124
 20
-408.4648299584
 10
1150.8516873214
 20
-412.6924570261
 10
1155.166470417
 20
-417.2061054616
 10
1159.2761566364
 20
-422.000734095
 10
1163.1761559841
 20
-427.070987937
 10
1166.8621126577
 20
-432.4112041605
 10
1170.3299099135
 20
-438.0154184247
 10
1173.575674664
 20
-443.8773715364
 10
1176.5957818037
 20
-449.9905164412
 10
1179.3868582578
 20
-456.3480255355
 10
1181.9457867497
 20
-462.942798292
 10
1184.2697092825
 20
-469.7674691899
 10
1186.3560303307
 20
-476.8144159419
 10
1188.2024197399
 20
-484.0757680066
 10
1189.8068153283
 20
-491.5434153792
 10
1191.1674251906
 20
-499.2090176495
 10
1192.282729699
 20
-507.0640133169
 10
1193.1514832004
 20
-515.0996293523
 10
1193.772715408
 20
-523.3068909969
 10
1194.1457324847
 20
-531.6766317856
 10
1194.2701178177
 20
-540.1995037845
 10
1194.1457324847
 20
-548.8659880322
 10
1193.772715408
 20
-557.6664051703
 10
1193.1514832004
 20
-566.5909262545
 10
1192.282729699
 20
-575.6295837324
 10
1191.1674251906
 20
-584.7722825755
 10
1189.8068153283
 20
-594.0088115548
 10
1188.2024197399
 20
-603.3288546444
 10
1186.3560303307
 20
-612.7220025444
 10
1184.2697092825
 20
-622.1777643056
 10
1181.9457867497
 20
-631.6855790475
 10
1179.3868582578
 20
-641.2348277529
 10
1176.5957818037
 20
-650.8148451281
 10
1173.575674664
 20
-660.4149315148
 10
1170.3299099135
 20
-670.0243648401
 10
1166.8621126577
 20
-679.6324125918
 10
1163.1761559841
 20
-689.2283438053
 10
1159.2761566364
 20
-698.8014410484
 10
1155.166470417
 20
-708.3410123918
 10
1150.8516873214
 20
-717.8364033501
 10
1146.3366264124
 20
-727.2770087819
 10
1141.6263304376
 20
-736.6522847344
 10
1136.7260601972
 20
-745.9517602192
 10
1131.6412886684
 20
-755.1650489075
 10
1126.377694893
 20
-764.2818607301
 10
1120.9411576343
 20
-773.2920133705
 10
1115.3377488114
 20
-782.1854436363
 10
1109.5737267178
 20
-790.9522186997
 10
1103.6555290315
 20
-799.5825471903
 10
1097.5897656251
 20
-808.0667901311
 10
1091.3832111829
 20
-816.3954717043
 10
1085.0427976354
 20
-824.559289834
 10
1078.5756064162
 20
-832.5491265761
 10
1071.9888605536
 20
-840.3560583012
 10
1065.2899166033
 20
-847.9713656617
 10
1058.4862564317
 20
-855.3865433299
 10
1051.5854788601
 20
-862.5933094976
 10
1044.5952911774
 20
-869.5836151254
 10
1037.5235005324
 20
-876.3496529329
 10
1030.3780052137
 20
-882.8838661184
 10
1023.1667858289
 20
-889.1789567986
 10
1015.897896391
 20
-895.2278941596
 10
1008.5794553228
 20
-901.0239223092
 10
1001.2196363903
 20
-906.5605678229
 10
993.8266595732
 20
-911.8316469734
 10
986.4087818841
 20
-916.8312726369
 10
978.9742881471
 20
-921.5538608691
 10
971.5314817439
 20
-925.9941371406
 10
964.0886753408
 20
-930.147142229
 10
956.6541816038
 20
-934.0082377568
 10
949.2363039147
 20
-937.5731113725
 10
941.8433270976
 20
-940.8377815666
 10
934.4835081651
 20
-943.7986021187
 10
927.1650670969
 20
-946.4522661696
 10
919.8961776589
 20
-948.7958099148
 10
912.6849582742
 20
-950.8266159145
 10
905.5394629555
 20
-952.5424160175
 10
898.4676723105
 20
-953.9412938936
 10
891.4774846278
 20
-955.0216871745
 10
884.5767070562
 20
-955.7823891987
 10
877.7730468846
 20
-956.222550359
 10
871.0741029343
 20
-956.3416790515
 10
864.4873570717
 20
-956.1396422246
 10
858.0201658525
 20
-955.6166655276
 10
851.679752305
 20
-954.7733330589
 10
845.4731978628
 20
-953.6105867134
 10
839.4074344563
 20
-952.1297251305
 10
833.4892367701
 20
-950.3324022439
 10
827.7252146765
 20
-948.2206254342
 10
822.1218058536
 20
-945.7967532868
 10
816.6852685949
 20
-943.063492958
 10
814.0442813538
 20
-941.5891730465
  0
LWPOLYLINE
  5
BD
330
1F
100
AcDbEntity
  8
0
  6
Continuous
 62
     7
370
    25
100
AcDbPolyline
 90
       61
 70
   128
 43
0.0
 10
794.2076144444
 20
-776.886902973
 10
794.3321090043
 20
-769.0365871883
 10
794.7054226396
 20
-761.0532556314
 10
795.3270454486
 20
-752.9478125729
 10
796.1961283695
 20
-744.7313290729
 10
797.3114843395
 20
-736.4150278596
 10
798.6715899164
 20
-728.0102680002
 10
800.2745873597
 20
-719.5285293856
 10
802.1182871677
 20
-710.9813970505
 10
804.2001710681
 20
-702.3805453497
 10
806.5173954582
 20
-693.7377220119
 10
809.0667952879
 20
-685.0647320943
 10
811.8448883839
 20
-676.3734218577
 10
814.8478802051
 20
-667.6756625867
 10
818.0716690259
 20
-658.9833343741
 10
821.5118515386
 20
-650.3083098946
 10
825.1637288676
 20
-641.6624381883
 10
829.0223129878
 20
-633.057528476
 10
833.0823335375
 20
-624.5053340291
 10
837.3382450169
 20
-616.0175361167
 10
841.7842343628
 20
-607.6057280497
 10
846.4142288886
 20
-599.2813993461
 10
851.2219045787
 20
-591.0559200376
 10
856.2006947265
 20
-582.9405251396
 10
861.3437989034
 20
-574.9462993053
 10
866.6441922477
 20
-567.0841616856
 10
872.0946350598
 20
-559.3648510148
 10
877.6876826904
 20
-551.7989109428
 10
883.4156957092
 20
-544.3966756335
 10
889.2708503393
 20
-537.1682556501
 10
895.2451491439
 20
-530.1235241448
 10
901.3304319494
 20
-523.2721033733
 10
907.5183869915
 20
-516.6233515525
 10
913.8005622679
 20
-510.1863500774
 10
920.1683770828
 20
-503.9698911179
 10
926.6131337672
 20
-497.9824656091
 10
933.1260295587
 20
-492.2322516541
 10
939.6981686249
 20
-486.7271033534
 10
946.3205742146
 20
-481.4745400775
 10
952.9842009181
 20
-476.4817361959
 10
959.6799470231
 20
-471.7555112782
 10
966.3986669457
 20
-467.3023207792
 10
973.1311837226
 20
-463.1282472213
 10
979.8683015459
 20
-459.2389918871
 10
986.6008183228
 20
-455.6398670315
 10
993.3195382454
 20
-452.335788626
 10
1000.0152843504
 20
-449.3312696444
 10
1006.6789110539
 20
-446.6304138982
 10
1013.3013166436
 20
-444.2369104314
 10
1019.8734557098
 20
-442.154028482
 10
1026.3863515013
 20
-440.384613016
 10
1032.8311081857
 20
-438.9310808422
 10
1039.1989230006
 20
-437.7954173107
 10
1045.481098277
 20
-436.9791736013
 10
1051.6690533191
 20
-436.4834646047
 10
1057.7543361246
 20
-436.3089673998
 10
1063.7286349292
 20
-436.4559203287
 10
1069.5837895593
 20
-436.9241226714
 10
1075.3118025781
 20
-437.7129349199
 10
1080.9048502087
 20
-438.8212796515
 10
1083.6412949176
 20
-439.4929701189
  0
LWPOLYLINE
  5
BE
330
1F
100
AcDbEntity
  8
0
  6
Continuous
 62
     7
370
    25
100
AcDbPolyline
 90
       19
 70
   128
 43
0.0
 10
829.0345904012
 20
-880.5325058412
 10
829.0223129878
 20
-880.5200821317
 10
825.1637288676
 20
-876.3701988167
 10
821.5118515386
 20
-871.9406949266
 10
818.0716690259
 20
-867.2376206309
 10
814.8478802051
 20
-862.2673997635
 10
811.8448883839
 20
-857.0368210482
 10
809.0667952879
 20
-851.5530288264
 10
806.5173954582
 20
-845.8235132986
 10
804.2001710681
 20
-839.8561002938
 10
802.1182871677
 20
-833.6589405804
 10
800.2745873597
 20
-827.2404987332
 10
798.6715899164
 20
-820.6095415716
 10
797.3114843395
 20
-813.7751261856
 10
796.1961283695
 20
-806.7465875644
 10
795.3270454486
 20
-799.5335258464
 10
794.7054226396
 20
-792.1457932063
 10
794.3321090043
 20
-784.5934803982
 10
794.2076144444
 20
-776.886902973
  0
LWPOLYLINE
  5
BF
330
1F
100
AcDbEntity
  8
0
  6
Continuous
 62
     7
370
    25
100
AcDbPolyline
 90
       54
 70
   128
 43
0.0
 10
831.524339069
 20
-823.0849145311
 10
831.6483951686
 20
-814.8062018181
 10
832.020412324
 20
-806.3943433176
 10
832.6399372898
 20
-797.8595875833
 10
833.50621527
 20
-789.2123329004
 10
834.6181908386
 20
-780.4631146168
 10
835.9745092244
 20
-771.6225923073
 10
837.5735179626
 20
-762.7015367864
 10
839.4132689072
 20
-753.7108169862
 10
841.4915206051
 20
-744.6613867138
 10
843.8057410268
 20
-735.5642713061
 10
846.3531106511
 20
-726.4305541969
 10
849.1305259006
 20
-717.2713634134
 10
852.1346029226
 20
-708.0978580189
 10
855.361681712
 20
-698.9212145166
 10
858.8078305703
 20
-689.752613233
 10
862.4688508961
 20
-680.6032246966
 10
866.3402823001
 20
-671.4841960277
 10
870.4174080392
 20
-662.4066373583
 10
874.695260764
 20
-653.3816082953
 10
879.1686285699
 20
-644.4201044464
 10
883.8320613471
 20
-635.5330440235
 10
888.6798774212
 20
-626.731254541
 10
893.7061704752
 20
-618.0254596234
 10
898.9048167451
 20
-609.4262659408
 10
904.2694824812
 20
-600.9441502862
 10
909.7936316647
 20
-592.5894468108
 10
915.4705339708
 20
-584.3723344341
 10
921.2932729685
 20
-576.3028244415
 10
927.2547545472
 20
-568.390748288
 10
933.3477155599
 20
-560.6457456198
 10
939.5647326721
 20
-553.0772525294
 10
945.8982314063
 20
-545.6944900598
 10
952.3404953697
 20
-538.5064529701
 10
958.883675656
 20
-531.521898776
 10
965.5198004081
 20
-524.7493370809
 10
972.2407845301
 20
-518.1970192082
 10
979.0384395381
 20
-511.8729281477
 10
985.9044835367
 20
-505.7847688304
 10
992.8305513088
 20
-499.9399587404
 10
999.8082045077
 20
-494.3456188787
 10
1006.8289419378
 20
-489.0085650865
 10
1013.8842099121
 20
-483.9352997418
 10
1020.9654126733
 20
-479.132003837
 10
1028.0639228666
 20
-474.6045294482
 10
1035.1710920507
 20
-470.3583926055
 10
1042.2782612349
 20
-466.3987665727
 10
1049.3767714282
 20
-462.7304755441
 10
1056.4579741894
 20
-459.3579887673
 10
1063.5132421637
 20
-456.2854150979
 10
1070.5339795938
 20
-453.5164979937
 10
1077.5116327927
 20
-451.0546109536
 10
1084.4377005648
 20
-448.9027534078
 10
1090.5160829988
 20
-447.2594196216
  0
ARC
  5
C0
330
1F
100
AcDbEntity
  8
0
  6
Continuous
 62
     7
370
    25
100
AcDbCircle
 10
1049.1347018114
 20
-825.2808318468
 30
0.0
 40
217.6214420174397
100
AcDbArc
 50
179.4218449783
 51
195.2718336399
  0
ENDSEC
  0
SECTION
  2
OBJECTS
  0
DICTIONARY
  5
C
330
0
100
AcDbDictionary
281
     1
  3
ACAD_GROUP
350
D
  3
ACAD_LAYOUT
350
1A
  3
ACAD_MLINESTYLE
350
17
  3
ACAD_PLOTSETTINGS
350
19
  3
ACAD_PLOTSTYLENAME
350
E
  3
ACAD_SCALELIST
350
47
  0
DICTIONARY
  5
D
102
{ACAD_REACTORS
330
C
102
}
330
C
100
AcDbDictionary
281
     1
  0
DICTIONARY
  5
1A
102
{ACAD_REACTORS
330
C
102
}
330
C
100
AcDbDictionary
281
     1
  3
Layout1
350
1E
  3
Layout2
350
26
  3
Model
350
22
  0
DICTIONARY
  5
17
102
{ACAD_REACTORS
330
C
102
}
330
C
100
AcDbDictionary
281
     1
  3
Standard
350
18
  0
DICTIONARY
  5
19
102
{ACAD_REACTORS
330
C
102
}
330
C
100
AcDbDictionary
281
     1
  0
ACDBDICTIONARYWDFLT
  5
E
102
{ACAD_REACTORS
330
C
102
}
330
C
100
AcDbDictionary
281
     1
  3
Normal
350
F
100
AcDbDictionaryWithDefault
340
F
  0
DICTIONARY
  5
47
102
{ACAD_REACTORS
330
C
102
}
330
C
100
AcDbDictionary
281
     1
  3
A0
350
48
  3
A1
350
49
  3
A2
350
4A
  3
A3
350
4B
  3
A4
350
4C
  3
A5
350
4D
  3
A6
350
4E
  3
A7
350
4F
  3
A8
350
50
  3
A9
350
51
  3
B0
350
52
  3
B1
350
53
  3
B2
350
54
  3
B3
350
55
  3
B4
350
56
  3
B5
350
57
  3
B6
350
58
  3
B7
350
59
  3
B8
350
5A
  3
B9
350
5B
  3
C0
350
5C
  3
C1
350
5D
  3
C2
350
5E
  3
C3
350
5F
  3
C4
350
60
  3
C5
350
61
  3
C6
350
62
  3
C7
350
63
  3
C8
350
64
  3
C9
350
65
  3
D0
350
66
  3
D1
350
67
  3
D2
350
68
  0
LAYOUT
  5
1E
102
{ACAD_REACTORS
330
1A
102
}
330
1A
100
AcDbPlotSettings
  1

  2
none_device
  4

  6

 40
0.0
 41
0.0
 42
0.0
 43
0.0
 44
0.0
 45
0.0
 46
0.0
 47
0.0
 48
0.0
 49
0.0
140
0.0
141
0.0
142
1.0
143
1.0
 70
   688
 72
     1
 73
     0
 74
     5
  7

 75
    16
147
1.0
148
0.0
149
0.0
100
AcDbLayout
  1
Layout1
 70
     1
 71
     1
 10
0.0
 20
0.0
 11
420.0
 21
297.0
 12
0.0
 22
0.0
 32
0.0
 14
1.0000000000E+20
 24
1.0000000000E+20
 34
1.0000000000E+20
 15
-1.0000000000E+20
 25
-1.0000000000E+20
 35
-1.0000000000E+20
146
0.0
 13
0.0
 23
0.0
 33
0.0
 16
1.0
 26
0.0
 36
0.0
 17
0.0
 27
1.0
 37
0.0
 76
     0
330
1B
  0
LAYOUT
  5
26
102
{ACAD_REACTORS
330
1A
102
}
330
1A
100
AcDbPlotSettings
  1

  2
none_device
  4

  6

 40
0.0
 41
0.0
 42
0.0
 43
0.0
 44
0.0
 45
0.0
 46
0.0
 47
0.0
 48
0.0
 49
0.0
140
0.0
141
0.0
142
1.0
143
1.0
 70
   688
 72
     1
 73
     0
 74
     5
  7

 75
    16
147
1.0
148
0.0
149
0.0
100
AcDbLayout
  1
Layout2
 70
     1
 71
     2
 10
0.0
 20
0.0
 11
0.0
 21
0.0
 12
0.0
 22
0.0
 32
0.0
 14
0.0
 24
0.0
 34
0.0
 15
0.0
 25
0.0
 35
0.0
146
0.0
 13
0.0
 23
0.0
 33
0.0
 16
1.0
 26
0.0
 36
0.0
 17
0.0
 27
1.0
 37
0.0
 76
     0
330
23
  0
LAYOUT
  5
22
102
{ACAD_REACTORS
330
1A
102
}
330
1A
100
AcDbPlotSettings
  1

  2
none_device
  4
Letter_(8.50_x_11.00_Inches)
  6

 40
6.35
 41
6.35
 42
6.35000508
 43
6.35000508
 44
215.9
 45
279.4
 46
0.0
 47
0.0
 48
0.0
 49
0.0
140
0.0
141
0.0
142
1.0
143
1.0
 70
  1712
 72
     1
 73
     0
 74
     0
  7

 75
     0
147
1.0
148
0.0
149
0.0
100
AcDbLayout
  1
Model
 70
     1
 71
     0
 10
0.0
 20
0.0
 11
279.4
 21
215.9
 12
0.0
 22
0.0
 32
0.0
 14
0.0
 24
0.0
 34
0.0
 15
279.4
 25
215.9
 35
0.0
146
0.0
 13
0.0
 23
0.0
 33
0.0
 16
1.0
 26
0.0
 36
0.0
 17
0.0
 27
1.0
 37
0.0
 76
     0
330
1F
331
29
  0
MLINESTYLE
  5
18
102
{ACAD_REACTORS
330
17
102
}
330
17
100
AcDbMlineStyle
  2
Standard
 70
     0
  3

 62
   256
 51
90.0
 52
90.0
 71
     2
 49
0.5
 62
   256
  6
BYLAYER
 49
-0.5
 62
   256
  6
BYLAYER
  0
ACDBPLACEHOLDER
  5
F
102
{ACAD_REACTORS
330
E
102
}
330
E
  0
SCALE
  5
48
102
{ACAD_REACTORS
330
47
102
}
330
47
100
AcDbScale
 70
     0
300
1:1
140
1.0
141
1.0
290
     1
  0
SCALE
  5
49
102
{ACAD_REACTORS
330
47
102
}
330
47
100
AcDbScale
 70
     0
300
1:2
140
1.0
141
2.0
290
     0
  0
SCALE
  5
4A
102
{ACAD_REACTORS
330
47
102
}
330
47
100
AcDbScale
 70
     0
300
1:4
140
1.0
141
4.0
290
     0
  0
SCALE
  5
4B
102
{ACAD_REACTORS
330
47
102
}
330
47
100
AcDbScale
 70
     0
300
1:5
140
1.0
141
5.0
290
     0
  0
SCALE
  5
4C
102
{ACAD_REACTORS
330
47
102
}
330
47
100
AcDbScale
 70
     0
300
1:8
140
1.0
141
8.0
290
     0
  0
SCALE
  5
4D
102
{ACAD_REACTORS
330
47
102
}
330
47
100
AcDbScale
 70
     0
300
1:10
140
1.0
141
10.0
290
     0
  0
SCALE
  5
4E
102
{ACAD_REACTORS
330
47
102
}
330
47
100
AcDbScale
 70
     0
300
1:16
140
1.0
141
16.0
290
     0
  0
SCALE
  5
4F
102
{ACAD_REACTORS
330
47
102
}
330
47
100
AcDbScale
 70
     0
300
1:20
140
1.0
141
20.0
290
     0
  0
SCALE
  5
50
102
{ACAD_REACTORS
330
47
102
}
330
47
100
AcDbScale
 70
     0
300
1:30
140
1.0
141
30.0
290
     0
  0
SCALE
  5
51
102
{ACAD_REACTORS
330
47
102
}
330
47
100
AcDbScale
 70
     0
300
1:40
140
1.0
141
40.0
290
     0
  0
SCALE
  5
52
102
{ACAD_REACTORS
330
47
102
}
330
47
100
AcDbScale
 70
     0
300
1:50
140
1.0
141
50.0
290
     0
  0
SCALE
  5
53
102
{ACAD_REACTORS
330
47
102
}
330
47
100
AcDbScale
 70
     0
300
1:100
140
1.0
141
100.0
290
     0
  0
SCALE
  5
54
102
{ACAD_REACTORS
330
47
102
}
330
47
100
AcDbScale
 70
     0
300
2:1
140
2.0
141
1.0
290
     0
  0
SCALE
  5
55
102
{ACAD_REACTORS
330
47
102
}
330
47
100
AcDbScale
 70
     0
300
4:1
140
4.0
141
1.0
290
     0
  0
SCALE
  5
56
102
{ACAD_REACTORS
330
47
102
}
330
47
100
AcDbScale
 70
     0
300
8:1
140
8.0
141
1.0
290
     0
  0
SCALE
  5
57
102
{ACAD_REACTORS
330
47
102
}
330
47
100
AcDbScale
 70
     0
300
10:1
140
10.0
141
1.0
290
     0
  0
SCALE
  5
58
102
{ACAD_REACTORS
330
47
102
}
330
47
100
AcDbScale
 70
     0
300
100:1
140
100.0
141
1.0
290
     0
  0
SCALE
  5
59
102
{ACAD_REACTORS
330
47
102
}
330
47
100
AcDbScale
 70
     0
300
1/128" = 1'-0"
140
0.0078125
141
12.0
290
     0
  0
SCALE
  5
5A
102
{ACAD_REACTORS
330
47
102
}
330
47
100
AcDbScale
 70
     0
300
1/64" = 1'-0"
140
0.015625
141
12.0
290
     0
  0
SCALE
  5
5B
102
{ACAD_REACTORS
330
47
102
}
330
47
100
AcDbScale
 70
     0
300
1/32" = 1'-0"
140
0.03125
141
12.0
290
     0
  0
SCALE
  5
5C
102
{ACAD_REACTORS
330
47
102
}
330
47
100
AcDbScale
 70
     0
300
1/16" = 1'-0"
140
0.0625
141
12.0
290
     0
  0
SCALE
  5
5D
102
{ACAD_REACTORS
330
47
102
}
330
47
100
AcDbScale
 70
     0
300
3/32" = 1'-0"
140
0.09375
141
12.0
290
     0
  0
SCALE
  5
5E
102
{ACAD_REACTORS
330
47
102
}
330
47
100
AcDbScale
 70
     0
300
1/8" = 1'-0"
140
0.125
141
12.0
290
     0
  0
SCALE
  5
5F
102
{ACAD_REACTORS
330
47
102
}
330
47
100
AcDbScale
 70
     0
300
3/16" = 1'-0"
140
0.1875
141
12.0
290
     0
  0
SCALE
  5
60
102
{ACAD_REACTORS
330
47
102
}
330
47
100
AcDbScale
 70
     0
300
1/4" = 1'-0"
140
0.25
141
12.0
290
     0
  0
SCALE
  5
61
102
{ACAD_REACTORS
330
47
102
}
330
47
100
AcDbScale
 70
     0
300
3/8" = 1'-0"
140
0.375
141
12.0
290
     0
  0
SCALE
  5
62
102
{ACAD_REACTORS
330
47
102
}
330
47
100
AcDbScale
 70
     0
300
1/2" = 1'-0"
140
0.5
141
12.0
290
     0
  0
SCALE
  5
63
102
{ACAD_REACTORS
330
47
102
}
330
47
100
AcDbScale
 70
     0
300
3/4" = 1'-0"
140
0.75
141
12.0
290
     0
  0
SCALE
  5
64
102
{ACAD_REACTORS
330
47
102
}
330
47
100
AcDbScale
 70
     0
300
1" = 1'-0"
140
1.0
141
12.0
290
     0
  0
SCALE
  5
65
102
{ACAD_REACTORS
330
47
102
}
330
47
100
AcDbScale
 70
     0
300
1-1/2" = 1'-0"
140
1.5
141
12.0
290
     0
  0
SCALE
  5
66
102
{ACAD_REACTORS
330
47
102
}
330
47
100
AcDbScale
 70
     0
300
3" = 1'-0"
140
3.0
141
12.0
290
     0
  0
SCALE
  5
67
102
{ACAD_REACTORS
330
47
102
}
330
47
100
AcDbScale
 70
     0
300
6" = 1'-0"
140
6.0
141
12.0
290
     0
  0
SCALE
  5
68
102
{ACAD_REACTORS
330
47
102
}
330
47
100
AcDbScale
 70
     0
300
1'-0" = 1'-0"
140
12.0
141
12.0
290
     0
  0
ENDSEC
  0
EOF
